ISO-10303-21;
HEADER;
FILE_DESCRIPTION (( 'STEP AP203' ),
    '1' );
FILE_NAME ('BK7-SPDBSP-25.4-605.STEP',
    '2020-12-22T02:22:18',
    ( '' ),
    ( '' ),
    'SwSTEP 2.0',
    'SolidWorks 2020',
    '' );
FILE_SCHEMA (( 'CONFIG_CONTROL_DESIGN' ));
ENDSEC;

DATA;
#1 = CC_DESIGN_APPROVAL ( #44, ( #27 ) ) ;
#2 = VECTOR ( 'NONE', #151, 1000.000000000000000 ) ;
#3 = LOCAL_TIME ( 10, 22, 18.00000000000000000, #105 ) ;
#4 = ORIENTED_EDGE ( 'NONE', *, *, #9, .T. ) ;
#5 = DIRECTION ( 'NONE',  ( 1.000000000000000000, 0.000000000000000000, 0.000000000000000000 ) ) ;
#6 = VERTEX_POINT ( 'NONE', #134 ) ;
#7 = CARTESIAN_POINT ( 'NONE',  ( 3.499999999999998224, 1.555301434917138433E-15, -12.69999999999999929 ) ) ;
#8 = CARTESIAN_POINT ( 'NONE',  ( 3.499999999999998224, 0.000000000000000000, 0.000000000000000000 ) ) ;
#9 = EDGE_CURVE ( 'NONE', #71, #132, #157, .T. ) ;
#10 = CC_DESIGN_PERSON_AND_ORGANIZATION_ASSIGNMENT ( #119, #24, ( #102 ) ) ;
#11 = PERSON_AND_ORGANIZATION ( #145, #153 ) ;
#12 = CALENDAR_DATE ( 2020, 22, 12 ) ;
#13 =( GEOMETRIC_REPRESENTATION_CONTEXT ( 3 ) GLOBAL_UNCERTAINTY_ASSIGNED_CONTEXT ( ( #76 ) ) GLOBAL_UNIT_ASSIGNED_CONTEXT ( ( #136, #117, #103 ) ) REPRESENTATION_CONTEXT ( 'NONE', 'WORKASPACE' ) );
#14 = DATE_AND_TIME ( #45, #106 ) ;
#15 = DATE_TIME_ROLE ( 'classification_date' ) ;
#16 = ORIENTED_EDGE ( 'NONE', *, *, #135, .T. ) ;
#17 = EDGE_CURVE ( 'NONE', #6, #149, #58, .T. ) ;
#18 = DIRECTION ( 'NONE',  ( 0.000000000000000000, 0.000000000000000000, 1.000000000000000000 ) ) ;
#19 = DIRECTION ( 'NONE',  ( 0.000000000000000000, 0.000000000000000000, 1.000000000000000000 ) ) ;
#20 = APPROVAL ( #160, 'UNSPECIFIED' ) ;
#21 = DESIGN_CONTEXT ( 'detailed design', #114, 'design' ) ;
#22 = SECURITY_CLASSIFICATION ( '', '', #82 ) ;
#23 = AXIS2_PLACEMENT_3D ( 'NONE', #39, #112, #49 ) ;
#24 = PERSON_AND_ORGANIZATION_ROLE ( 'creator' ) ;
#25 = COORDINATED_UNIVERSAL_TIME_OFFSET ( 8, 0, .AHEAD. ) ;
#26 = APPLICATION_PROTOCOL_DEFINITION ( 'international standard', 'config_control_design', 1994, #114 ) ;
#27 = PRODUCT_DEFINITION ( 'UNKNOWN', '', #102, #21 ) ;
#28 = PRODUCT ( 'BK7-SPDBSP-25.4-605', 'BK7-SPDBSP-25.4-605', '', ( #94 ) ) ;
#29 = PERSON_AND_ORGANIZATION ( #145, #153 ) ;
#30 = ORIENTED_EDGE ( 'NONE', *, *, #17, .F. ) ;
#31 = ORIENTED_EDGE ( 'NONE', *, *, #90, .T. ) ;
#32 = PRODUCT_RELATED_PRODUCT_CATEGORY ( 'detail', '', ( #28 ) ) ;
#33 = DIRECTION ( 'NONE',  ( -1.000000000000000000, -0.000000000000000000, -0.000000000000000000 ) ) ;
#34 = CARTESIAN_POINT ( 'NONE',  ( -1.187907395172932594E-15, 0.000000000000000000, 12.69999999999999929 ) ) ;
#35 = ADVANCED_FACE ( 'NONE', ( #88 ), #73, .T. ) ;
#36 = AXIS2_PLACEMENT_3D ( 'NONE', #150, #101, #19 ) ;
#37 = MANIFOLD_SOLID_BREP ( 'Ðý×', #116 ) ;
#38 = DIRECTION ( 'NONE',  ( -1.000000000000000000, -0.000000000000000000, -0.000000000000000000 ) ) ;
#39 = CARTESIAN_POINT ( 'NONE',  ( 3.499999999999999112, 12.69999999999999929, 0.000000000000000000 ) ) ;
#40 = SHAPE_DEFINITION_REPRESENTATION ( #128, #62 ) ;
#41 = CC_DESIGN_APPROVAL ( #123, ( #22 ) ) ;
#42 = CARTESIAN_POINT ( 'NONE',  ( 0.000000000000000000, 0.000000000000000000, 0.000000000000000000 ) ) ;
#43 = DIRECTION ( 'NONE',  ( 0.000000000000000000, 0.000000000000000000, 1.000000000000000000 ) ) ;
#44 = APPROVAL ( #172, 'UNSPECIFIED' ) ;
#45 = CALENDAR_DATE ( 2020, 22, 12 ) ;
#46 = EDGE_LOOP ( 'NONE', ( #109, #167, #16, #30 ) ) ;
#47 = CIRCLE ( 'NONE', #61, 12.69999999999999929 ) ;
#48 = EDGE_LOOP ( 'NONE', ( #31, #124 ) ) ;
#49 = DIRECTION ( 'NONE',  ( -0.000000000000000000, 0.000000000000000000, 1.000000000000000000 ) ) ;
#50 = FACE_OUTER_BOUND ( 'NONE', #48, .T. ) ;
#51 = FACE_OUTER_BOUND ( 'NONE', #121, .T. ) ;
#52 = LOCAL_TIME ( 10, 22, 18.00000000000000000, #161 ) ;
#53 = PLANE ( 'NONE',  #66 ) ;
#54 = ADVANCED_FACE ( 'NONE', ( #122 ), #100, .T. ) ;
#55 = AXIS2_PLACEMENT_3D ( 'NONE', #169, #64, #168 ) ;
#56 = CALENDAR_DATE ( 2020, 22, 12 ) ;
#57 = DATE_TIME_ROLE ( 'creation_date' ) ;
#58 = CIRCLE ( 'NONE', #147, 12.69999999999999929 ) ;
#59 = APPROVAL_ROLE ( '' ) ;
#60 = PERSON_AND_ORGANIZATION ( #145, #153 ) ;
#61 = AXIS2_PLACEMENT_3D ( 'NONE', #87, #33, #75 ) ;
#62 = ADVANCED_BREP_SHAPE_REPRESENTATION ( 'BK7-SPDBSP-25.4-605', ( #37, #92 ), #13 ) ;
#63 = PLANE ( 'NONE',  #23 ) ;
#64 = DIRECTION ( 'NONE',  ( -1.000000000000000000, -0.000000000000000000, -0.000000000000000000 ) ) ;
#65 = CARTESIAN_POINT ( 'NONE',  ( 3.499999999999998224, 0.000000000000000000, 12.69999999999999929 ) ) ;
#66 = AXIS2_PLACEMENT_3D ( 'NONE', #115, #5, #74 ) ;
#67 = COORDINATED_UNIVERSAL_TIME_OFFSET ( 8, 0, .AHEAD. ) ;
#68 = ADVANCED_FACE ( 'NONE', ( #50 ), #53, .F. ) ;
#69 = APPROVAL_DATE_TIME ( #14, #44 ) ;
#70 = PERSON_AND_ORGANIZATION_ROLE ( 'creator' ) ;
#71 = VERTEX_POINT ( 'NONE', #65 ) ;
#72 = ORIENTED_EDGE ( 'NONE', *, *, #9, .F. ) ;
#73 = CYLINDRICAL_SURFACE ( 'NONE', #55, 12.69999999999999929 ) ;
#74 = DIRECTION ( 'NONE',  ( 0.000000000000000000, 0.000000000000000000, -1.000000000000000000 ) ) ;
#75 = DIRECTION ( 'NONE',  ( 0.000000000000000000, 0.000000000000000000, 1.000000000000000000 ) ) ;
#76 = UNCERTAINTY_MEASURE_WITH_UNIT (LENGTH_MEASURE( 1.000000000000000082E-05 ), #136, 'distance_accuracy_value', 'NONE');
#77 = AXIS2_PLACEMENT_3D ( 'NONE', #86, #165, #133 ) ;
#78 = ADVANCED_FACE ( 'NONE', ( #51 ), #63, .F. ) ;
#79 = DATE_AND_TIME ( #56, #108 ) ;
#80 = EDGE_CURVE ( 'NONE', #132, #6, #99, .T. ) ;
#81 = PERSON_AND_ORGANIZATION ( #145, #153 ) ;
#82 = SECURITY_CLASSIFICATION_LEVEL ( 'unclassified' ) ;
#83 = APPLICATION_PROTOCOL_DEFINITION ( 'international standard', 'config_control_design', 1994, #84 ) ;
#84 = APPLICATION_CONTEXT ( 'configuration controlled 3d designs of mechanical parts and assemblies' ) ;
#85 = ORIENTED_EDGE ( 'NONE', *, *, #135, .F. ) ;
#86 = CARTESIAN_POINT ( 'NONE',  ( 0.000000000000000000, 0.000000000000000000, 0.000000000000000000 ) ) ;
#87 = CARTESIAN_POINT ( 'NONE',  ( -1.187907395172932594E-15, 0.000000000000000000, 0.000000000000000000 ) ) ;
#88 = FACE_OUTER_BOUND ( 'NONE', #98, .T. ) ;
#89 = EDGE_CURVE ( 'NONE', #132, #71, #107, .T. ) ;
#90 = EDGE_CURVE ( 'NONE', #149, #6, #47, .T. ) ;
#91 = PERSON_AND_ORGANIZATION ( #145, #153 ) ;
#92 = AXIS2_PLACEMENT_3D ( 'NONE', #42, #43, #163 ) ;
#93 = APPROVAL_STATUS ( 'not_yet_approved' ) ;
#94 = MECHANICAL_CONTEXT ( 'NONE', #84, 'mechanical' ) ;
#95 = APPROVAL_DATE_TIME ( #79, #20 ) ;
#96 = COORDINATED_UNIVERSAL_TIME_OFFSET ( 8, 0, .AHEAD. ) ;
#97 = ORIENTED_EDGE ( 'NONE', *, *, #80, .T. ) ;
#98 = EDGE_LOOP ( 'NONE', ( #4, #97, #164, #85 ) ) ;
#99 = LINE ( 'NONE', #137, #143 ) ;
#100 = CYLINDRICAL_SURFACE ( 'NONE', #77, 12.69999999999999929 ) ;
#101 = DIRECTION ( 'NONE',  ( -1.000000000000000000, -0.000000000000000000, -0.000000000000000000 ) ) ;
#102 = PRODUCT_DEFINITION_FORMATION_WITH_SPECIFIED_SOURCE ( 'ANY', '', #28, .NOT_KNOWN. ) ;
#103 =( NAMED_UNIT ( * ) SI_UNIT ( $, .STERADIAN. ) SOLID_ANGLE_UNIT ( ) );
#104 = PERSON_AND_ORGANIZATION ( #145, #153 ) ;
#105 = COORDINATED_UNIVERSAL_TIME_OFFSET ( 8, 0, .AHEAD. ) ;
#106 = LOCAL_TIME ( 10, 22, 18.00000000000000000, #25 ) ;
#107 = CIRCLE ( 'NONE', #36, 12.69999999999999929 ) ;
#108 = LOCAL_TIME ( 10, 22, 18.00000000000000000, #67 ) ;
#109 = ORIENTED_EDGE ( 'NONE', *, *, #80, .F. ) ;
#110 = APPROVAL_PERSON_ORGANIZATION ( #29, #20, #171 ) ;
#111 = ORIENTED_EDGE ( 'NONE', *, *, #89, .F. ) ;
#112 = DIRECTION ( 'NONE',  ( -1.000000000000000000, 0.000000000000000000, -0.000000000000000000 ) ) ;
#113 = LINE ( 'NONE', #126, #2 ) ;
#114 = APPLICATION_CONTEXT ( 'configuration controlled 3d designs of mechanical parts and assemblies' ) ;
#115 = CARTESIAN_POINT ( 'NONE',  ( -5.939536975864662969E-16, 12.69999999999999929, 0.000000000000000000 ) ) ;
#116 = CLOSED_SHELL ( 'NONE', ( #35, #54, #78, #68 ) ) ;
#117 =( NAMED_UNIT ( * ) PLANE_ANGLE_UNIT ( ) SI_UNIT ( $, .RADIAN. ) );
#118 = PERSON_AND_ORGANIZATION_ROLE ( 'design_owner' ) ;
#119 = PERSON_AND_ORGANIZATION ( #145, #153 ) ;
#120 = DATE_AND_TIME ( #158, #3 ) ;
#121 = EDGE_LOOP ( 'NONE', ( #72, #111 ) ) ;
#122 = FACE_OUTER_BOUND ( 'NONE', #46, .T. ) ;
#123 = APPROVAL ( #93, 'UNSPECIFIED' ) ;
#124 = ORIENTED_EDGE ( 'NONE', *, *, #17, .T. ) ;
#125 = DIRECTION ( 'NONE',  ( -1.000000000000000000, -0.000000000000000000, -0.000000000000000000 ) ) ;
#126 = CARTESIAN_POINT ( 'NONE',  ( 0.000000000000000000, 0.000000000000000000, 12.69999999999999929 ) ) ;
#127 = AXIS2_PLACEMENT_3D ( 'NONE', #8, #148, #155 ) ;
#128 = PRODUCT_DEFINITION_SHAPE ( 'NONE', 'NONE',  #27 ) ;
#129 = DATE_AND_TIME ( #144, #159 ) ;
#130 = PERSON_AND_ORGANIZATION ( #145, #153 ) ;
#131 = PERSON_AND_ORGANIZATION_ROLE ( 'classification_officer' ) ;
#132 = VERTEX_POINT ( 'NONE', #7 ) ;
#133 = DIRECTION ( 'NONE',  ( 0.000000000000000000, 0.000000000000000000, 1.000000000000000000 ) ) ;
#134 = CARTESIAN_POINT ( 'NONE',  ( -1.187907395172932594E-15, 1.555301434917138433E-15, -12.69999999999999929 ) ) ;
#135 = EDGE_CURVE ( 'NONE', #71, #149, #113, .T. ) ;
#136 =( LENGTH_UNIT ( ) NAMED_UNIT ( * ) SI_UNIT ( .MILLI., .METRE. ) );
#137 = CARTESIAN_POINT ( 'NONE',  ( 0.000000000000000000, 1.555301434917138433E-15, -12.69999999999999929 ) ) ;
#138 = CC_DESIGN_SECURITY_CLASSIFICATION ( #22, ( #102 ) ) ;
#139 = APPROVAL_ROLE ( '' ) ;
#140 = APPROVAL_DATE_TIME ( #120, #123 ) ;
#141 = CC_DESIGN_PERSON_AND_ORGANIZATION_ASSIGNMENT ( #91, #118, ( #28 ) ) ;
#142 = DATE_AND_TIME ( #12, #52 ) ;
#143 = VECTOR ( 'NONE', #125, 1000.000000000000000 ) ;
#144 = CALENDAR_DATE ( 2020, 22, 12 ) ;
#145 = PERSON ( 'UNSPECIFIED', 'UNSPECIFIED', 'UNSPECIFIED', ('UNSPECIFIED'), ('UNSPECIFIED'), ('UNSPECIFIED') ) ;
#146 = APPROVAL_PERSON_ORGANIZATION ( #130, #44, #59 ) ;
#147 = AXIS2_PLACEMENT_3D ( 'NONE', #170, #38, #18 ) ;
#148 = DIRECTION ( 'NONE',  ( -1.000000000000000000, -0.000000000000000000, -0.000000000000000000 ) ) ;
#149 = VERTEX_POINT ( 'NONE', #34 ) ;
#150 = CARTESIAN_POINT ( 'NONE',  ( 3.499999999999998224, 0.000000000000000000, 0.000000000000000000 ) ) ;
#151 = DIRECTION ( 'NONE',  ( -1.000000000000000000, -0.000000000000000000, -0.000000000000000000 ) ) ;
#152 = CC_DESIGN_DATE_AND_TIME_ASSIGNMENT ( #129, #57, ( #27 ) ) ;
#153 = ORGANIZATION ( 'UNSPECIFIED', 'UNSPECIFIED', '' ) ;
#154 = APPROVAL_PERSON_ORGANIZATION ( #81, #123, #139 ) ;
#155 = DIRECTION ( 'NONE',  ( 0.000000000000000000, 0.000000000000000000, 1.000000000000000000 ) ) ;
#156 = CC_DESIGN_DATE_AND_TIME_ASSIGNMENT ( #142, #15, ( #22 ) ) ;
#157 = CIRCLE ( 'NONE', #127, 12.69999999999999929 ) ;
#158 = CALENDAR_DATE ( 2020, 22, 12 ) ;
#159 = LOCAL_TIME ( 10, 22, 18.00000000000000000, #96 ) ;
#160 = APPROVAL_STATUS ( 'not_yet_approved' ) ;
#161 = COORDINATED_UNIVERSAL_TIME_OFFSET ( 8, 0, .AHEAD. ) ;
#162 = CC_DESIGN_PERSON_AND_ORGANIZATION_ASSIGNMENT ( #11, #174, ( #102 ) ) ;
#163 = DIRECTION ( 'NONE',  ( 1.000000000000000000, 0.000000000000000000, 0.000000000000000000 ) ) ;
#164 = ORIENTED_EDGE ( 'NONE', *, *, #90, .F. ) ;
#165 = DIRECTION ( 'NONE',  ( -1.000000000000000000, -0.000000000000000000, -0.000000000000000000 ) ) ;
#166 = CC_DESIGN_PERSON_AND_ORGANIZATION_ASSIGNMENT ( #104, #131, ( #22 ) ) ;
#167 = ORIENTED_EDGE ( 'NONE', *, *, #89, .T. ) ;
#168 = DIRECTION ( 'NONE',  ( 0.000000000000000000, 0.000000000000000000, 1.000000000000000000 ) ) ;
#169 = CARTESIAN_POINT ( 'NONE',  ( 0.000000000000000000, 0.000000000000000000, 0.000000000000000000 ) ) ;
#170 = CARTESIAN_POINT ( 'NONE',  ( -1.187907395172932594E-15, 0.000000000000000000, 0.000000000000000000 ) ) ;
#171 = APPROVAL_ROLE ( '' ) ;
#172 = APPROVAL_STATUS ( 'not_yet_approved' ) ;
#173 = CC_DESIGN_APPROVAL ( #20, ( #102 ) ) ;
#174 = PERSON_AND_ORGANIZATION_ROLE ( 'design_supplier' ) ;
#175 = CC_DESIGN_PERSON_AND_ORGANIZATION_ASSIGNMENT ( #60, #70, ( #27 ) ) ;
ENDSEC;
END-ISO-10303-21;
